Helloween - Back Against The Wall Guitar tab download free or play online

Guitar tab for Back Against The Wall by Helloween free download and read or play online: file .txt, 4.51 kb has 173 views and 0 downloads.

Download guitar tab "Back Against The Wall" (Helloween)

Helloween Band name
Back Against The Wall Song name
Guitar tabs Tab type
4.51 kb File size
.TXT File type
173 views
0 downloads
 
Are you robot?

Back Against The Wall guitar tab read and play online

                    Cordas afinadas Ѕ tom abaixo  
 
Riff 1; 
 
e b|--------------------------------------|--------------------------| 
Bb|--------------------------------------|--------------------------| 
Gb|--------------------------------------|--------------------------| 
Db|-10--------0----1---6----5---------|-10----0-----1---6----8| 
Ab|-10--------0----1---6----5---------|-10----0-----1---6----8| 
Db|-10--------0----1---6----5---------|-10----0-----1---6----8| 
 
C  F   CCCCCCC 
 
Refrгo igual riff 1; 
 
Riff 2; 
 
|---------------------------------------------------------- 
|---------------------------------------------------------- 
|------------------------------------------13------------- 
|-10-10-12-13---10-13-10----10-12-13-13-12-13- 
|-10-10-12-13---10-13-10----10-12-11-13-12-13- 
|-10-10-12-13---10-13-10----10-12-----13-12-13- 
                                               $ 
|-------------------------------------------------------| 
|-------------------------------------------------------| 
|-------------------------------------------------------| 
|-10-12-13-15-13-12-10--13-12-5---6--8--6----| 
|-10-12-13-15-13-12-10--13-12-5---6--8--6----| 
|-10-12-13-15-13-12-10--13-12-5---6--8--6----| 
 
Repetir riff 2 atй $ e continuar; 
 
|-----------------------| 
|-----------------------| 
|--------------5-------| 
|-6-----5-----3-------| 
|-6-----5-----3-------| 
|-6-----5-----3-------| 
 
Base 1; 
|------------------------------------------------------------------------------| 
|------------------------------------------------------------------------------| 
|------------------------------------------------------------------------------| 
|------------------------------------------------------------------------------| 
|-13--10-10---10-10-10---8-10---13-10--10---10-10-10--10-10-10-| 
|-13--10-10---10-10-10---8-10---13-10--10---10-10-10--10-10-10-| 
 
 
|-----------------------------------------------------------------------| 
|-----------------------------------------------------------------------| 
|---------------13~----13--12-10-12-------------------------------| 
|-/10--12--13-------------------------10-10---/13-12----13-10~-| 
|-----------------------------------------------------------------------| 
|-----------------------------------------------------------------------| 
 
|---------------------------------------------------| 
|---------------------------------------------------| 
|---------------------------------------------------| 
|-/13-12---8---/13-12----------------10--------| 
|------------------------10----10h12-----10-----| 
|---------------------------------------------------| 
 
|----------------------------------------------------------------| 
|----------------------------------------------------------------| 
|----------------------------------------------------------------| 
|-6-3-5---1-0-1-----------------------------------------------|  Fazer 2 vezes; 
|-6-3-5---1-0-1---333-333-333-333-333-333-333-333-| 
|-6-3-5---1-0-1-----------------------------------------------| 
 
|--------------------------------------------------------| 
|--------------------------------------------------------| 
|--------------------------------------------------------| 
|--------------------------------------------------------| 
|-6-3-5---1-0-1---6-3-5---1-0-1---6-3-5---1-0-1-| 
|-6-3-5---1-0-1---6-3-5---1-0-1---6-3-5---1-0-1-| 
 
C F 
 
 
 
_______________________________________________________ 
Contribuiзгo: Valker Renato(valquer-renato@ibest.com.br) 
"
var fontTamanho = '12px'

function alteraFonte()
{
fontTamanho = (fontTamanho == '12px' ? '16px' : '12px'); 
document.getElementById("spCifra").style.font = fontTamanho
}
function montaEscala(pAcorde){
	window.open('escalas.html?acorde=' + pAcorde,'escala', 'width=650, height=150, toolbars=no, statusbar=no, location=no')
}





.smalltext{font-size: 8pt}
.nota {font-size: 7pt; color:black; background-color:white}
.border {border: 1px solid #3F6A82}
sda {font-family: arial; font-size: 10pt; color: blue}
.b {font-family: arial; font-size: 10pt}
.db {color: darkblue; font-weight:bold; cursor:hand}
pre {font-family:;font-size:10pt;} 



   
     
    
      
  




  
  Helloween 
  Back Against the Wall
  










 





 




   
    
         
            
            
            Print 
		  
            
            Send toe-amail


           
		   
		  
            Add toSongbook 

			
           
            


          more Helloween, Back Against the Wall tabs at GoogleTabs
        
		

	
		Songbook                    

Comments for guitar tab — Back Against The Wall (Helloween)

Other Back Against The Wall by Helloween tabs:

Last viewed Helloween tabs: