Helloween - Deliver Us From Temptation Guitar tab download free or play online

Guitar tab for Deliver Us From Temptation by Helloween free download and read or play online: file .txt, 11 kb has 73 views and 0 downloads.

Download guitar tab "Deliver Us From Temptation" (Helloween)

Helloween Band name
Deliver Us From Temptation Song name
Guitar tabs Tab type
11 kb File size
.TXT File type
73 views
0 downloads
 
Are you robot?

Deliver Us From Temptation guitar tab read and play online

                    



Author/Artist: Helloween

Title: Deliver Us From Temptation

Album: If I Could Fly EP

Transcribed by: Eugenio Bravo

Email: eugenio@robhalford.com



(*) symbol=sustained note



Standard Tuning: EADG







--------|--------------|--------------|---------------|---------------|--------||

--------|--------------|--------------|---------------|---------------|--------||

--------|--------------|--------------|---------------|---------------|-0*/12*-||

---0----|--------------|-000000000000-|-000000000-1-3-|-000000000-1-0-|--------||

 INTRO 1  (Gtr Riff x2)                                                            





----------------------------------------------||

----------------------------------------------||

-5555555555555555*----------------------------||

-------------------000000000-1-3-00000000-1-0-||

 VERSE 1 (this variation x2)                                                  





----------------------------------------------||

----------------------------------------------||

-0000*------0000*------0000*--2-0-------------||

-------3333-------0000------------4444*-0-1-0-||

 BRIDGE 1 (this variation x2)                                                 





-------------------------------------|---------------------------------||

-------------------------------------|---------------------------------||

-0000*-----555-0000*------------2222-|-0000*-----5555*------------2222-||

------1111*---------000022224444-----|------1111*-----000022224444-----||

 CHORUS 1                                                                     





-----------------------------------------------------------------||

-----------------------------------------------------------------||

-0---0---0-3-0-0---0-1-----------------0---0---0-3-0-0---0---1-0-||

---3---3---------3-----4-----------------3---0---------3---1-----||

 INTERLUDE 1             "Deliver Us!"                                        





----------------------------------------------||

----------------------------------------------||

-5555555555555555*----------------------------||

-------------------000000000-1-3-00000000-1-0-||

 VERSE 2 (this variation x2)                                                  





----------------------------------------------||

----------------------------------------------||

-0000*------0000*------0000*--2-0-------------||

-------3333-------0000------------4444*-0-1-0-||

 BRIDGE 2 (this variation x2)                                                 





-------------------------------------|---------------------------------||

-------------------------------------|---------------------------------||

-0000*-----555-0000*------------2222-|-0000*-----5555*------------2222-||

------1111*---------000022224444-----|------1111*-----000022224444-----||

 CHORUS 2                                                                     





------------||

------------||

-00-00-00-2-||

------------||

 PRE-SOLO                                       



-------------------------------|----------------------------|

-------------------------------|----------------------------|

-2222*-------------2222*-1111*-|-2222*-------------55*-44*--|

-------3333*-5555*-------------|-------3333*-0000*----------|

 GUITAR SOLO                                                                  





-------------------------------|---------------------------||

-------------------------------|---------------------------||

-2222*-------2222*-1111*-5555*-|-2222*-------0000*-55*-44*-||

-------2222*-------------------|-------3333*---------------||

                                 (repeat this variation x2)                   





--------|------------|--------------|---------------|---------------||

--------|------------|--------------|---------------|---------------||

--------|------------|--------------|---------------|---------------||

---0----|------------|-000000000000-|-000000000-1-3-|-000000000-1-0-||

 INTRO 2  (Gtr Riff)                                                            





----------------------------------------------||

----------------------------------------------||

-0000*------0000*------0000*--2-0-------------||

-------3333-------0000------------4444*-0-1-0-||

 BRIDGE 3 (this variation x2)                                                 





-------------------------------------|---------------------------------||

-------------------------------------|---------------------------------||

-0000*-----555-0000*------------2222-|-0000*-----5555*------------2222-||

------1111*---------000022224444-----|------1111*-----000022224444-----||

 CHORUS 3                                                                     





------------------------------------------------------------------------------|

------------------------------------------------------------------------------|

-0---0---0-3-0-0---0-1-----------------0---0---0-3-0-0---0---1-0--------------|

---3---3---------3-----4-----------------3---0---------3---1------------------|

 OUTRO                   "Deliver Us!"                           "Deliver Us!"



-------------------------------------------------------------------||

-------------------------------------------------------------------||

-0---0---0-3-0-0---0-1-----------------0---0---0-3-0-0---0---1-0---||

---3---3---------3-----4-----------------3---0---------3---1-------||

                         "Deliver Us!"                           



End.

Author/Artist: Helloween

Title: Deliver Us From Temptation

Album: If I Could Fly EP

Transcribed by: Eugenio Bravo

Email: eugenio@robhalford.com



(*) symbol=sustained note



Standard Tuning: EADG







--------|--------------|--------------|---------------|---------------|--------||

--------|--------------|--------------|---------------|---------------|--------||

--------|--------------|--------------|---------------|---------------|-0*/12*-||

---0----|--------------|-000000000000-|-000000000-1-3-|-000000000-1-0-|--------||

 INTRO 1  (Gtr Riff x2)                                                            





----------------------------------------------||

----------------------------------------------||

-5555555555555555*----------------------------||

-------------------000000000-1-3-00000000-1-0-||

 VERSE 1 (this variation x2)                                                  





----------------------------------------------||

----------------------------------------------||

-0000*------0000*------0000*--2-0-------------||

-------3333-------0000------------4444*-0-1-0-||

 BRIDGE 1 (this variation x2)                                                 





-------------------------------------|---------------------------------||

-------------------------------------|---------------------------------||

-0000*-----555-0000*------------2222-|-0000*-----5555*------------2222-||

------1111*---------000022224444-----|------1111*-----000022224444-----||

 CHORUS 1                                                                     





-----------------------------------------------------------------||

-----------------------------------------------------------------||

-0---0---0-3-0-0---0-1-----------------0---0---0-3-0-0---0---1-0-||

---3---3---------3-----4-----------------3---0---------3---1-----||

 INTERLUDE 1             "Deliver Us!"                                        





----------------------------------------------||

----------------------------------------------||

-5555555555555555*----------------------------||

-------------------000000000-1-3-00000000-1-0-||

 VERSE 2 (this variation x2)                                                  





----------------------------------------------||

----------------------------------------------||

-0000*------0000*------0000*--2-0-------------||

-------3333-------0000------------4444*-0-1-0-||

 BRIDGE 2 (this variation x2)                                                 





-------------------------------------|---------------------------------||

-------------------------------------|---------------------------------||

-0000*-----555-0000*------------2222-|-0000*-----5555*------------2222-||

------1111*---------000022224444-----|------1111*-----000022224444-----||

 CHORUS 2                                                                     





------------||

------------||

-00-00-00-2-||

------------||

 PRE-SOLO                                       



-------------------------------|----------------------------|

-------------------------------|----------------------------|

-2222*-------------2222*-1111*-|-2222*-------------55*-44*--|

-------3333*-5555*-------------|-------3333*-0000*----------|

 GUITAR SOLO                                                                  





-------------------------------|---------------------------||

-------------------------------|---------------------------||

-2222*-------2222*-1111*-5555*-|-2222*-------0000*-55*-44*-||

-------2222*-------------------|-------3333*---------------||

                                 (repeat this variation x2)                   





--------|------------|--------------|---------------|---------------||

--------|------------|--------------|---------------|---------------||

--------|------------|--------------|---------------|---------------||

---0----|------------|-000000000000-|-000000000-1-3-|-000000000-1-0-||

 INTRO 2  (Gtr Riff)                                                            





----------------------------------------------||

----------------------------------------------||

-0000*------0000*------0000*--2-0-------------||

-------3333-------0000------------4444*-0-1-0-||

 BRIDGE 3 (this variation x2)                                                 





-------------------------------------|---------------------------------||

-------------------------------------|---------------------------------||

-0000*-----555-0000*------------2222-|-0000*-----5555*------------2222-||

------1111*---------000022224444-----|------1111*-----000022224444-----||

 CHORUS 3                                                                     





------------------------------------------------------------------------------|

------------------------------------------------------------------------------|

-0---0---0-3-0-0---0-1-----------------0---0---0-3-0-0---0---1-0--------------|

---3---3---------3-----4-----------------3---0---------3---1------------------|

 OUTRO                   "Deliver Us!"                           "Deliver Us!"



-------------------------------------------------------------------||

-------------------------------------------------------------------||

-0---0---0-3-0-0---0-1-----------------0---0---0-3-0-0---0---1-0---||

---3---3---------3-----4-----------------3---0---------3---1-------||

                         "Deliver Us!"                           



End.



                    

Comments for guitar tab — Deliver Us From Temptation (Helloween)

Other Deliver Us From Temptation by Helloween tabs:

Last viewed Helloween tabs: